About This Blog

I started this blog because the tabs on the Lucero message board kept getting lost when they switched sites. A blog isn't a perfect forum for guitar tabs and chords, but it now has posts for all but a handful of their songs. And, to the best of my knowledge, this is the only source for Lucero tabs that has been endorsed by an actual Lucero guitarist. Accept no substitutes.

Holy shit! That's how that goes... www.lucerotabs.blogspot.com
-Brian Venable

Thank you to the folks who have sent me submissions, suggestions, and corrections. Thanks also to anyone who posted a tab on the luceromusic.com boards. You can find me there posting as Boston Twang. You can also email me at lucerotabs@gmail. Submissions and/or corrections are greatly appreciated.

General Thoughts on Lucero Chords

Ben seems to favor chord variations that fret the B string at the third fret. If a C, Em, G, or A doesn't seem quite right, try:
Cadd9 (x32030), Em7 (022030), G (320033), Asus (x02230)

Also, I think he leaves the E string open on a lot of his D chords (xx0230).

Thursday, May 22, 2008

Nobody's Darlings

Main Riff

---------------------------------------
-------3-------3-------3---------------
-0h2-----2-------2-------0-------------
-0---0---------------------------------
-----------4-4-----2-2-----------------
---------------------------------------

Chords for Bridge "Got to the game..."

G (320033)
D (xx0230)
Db(x4x230)
B?(x2003x)

Solo

---------------------------------------
---------------------------------------
---------------------------------------
---------------------------------------
-5-4-5-4-7-9-7-4-5-4-2-4-5-5-----------
---------------------------------------

1 comment:

Chris Berryman said...

you have the solo tabbed out on the A string. it should be played on the D.